Linkin Park - LinPark.ru
Главная       Биография       Фото         Статьи        Табы     Download      Магазин       Ссылки

Табы песни Crawling


Tuning: C, G, C, F, A, D
Note: В песне всего одна гитарная партия, она в припеве.

Chorus
D ----------------------------------------
A ----------------------------------------
F -----3---------5----2-------------------
C 0----3----3----5----2-------------------
G 0----1----3----3----0-------------------
C 0---------3-----------------------------
With You

Guitar Tuning: C, G, C, F, A, D (low to high)

Key: / = Slide
* = Harmonic

INTRO/opening to chorus (* means a harmonic)
D --------------------------------
A --------------------------------
F --------------------------------
C --------------------------------
G --------------------------------
C ---0-0--0-13/0--0-0-0-0-0-4*----

VERSE (High B string and G)
D ---20---19------------------------20--------19--
A --------------19---16-------16--------12--------
F ------------------------------------------------
C ------------------------------------------------
G ------------------------------------------------
C ------------------------------------------------

CHORUS/second part of intro
D --------------------------------------------------
A --------------------------------------------------
F --------------------------------7--------------4--
C ---2----------------------------5--------------x--
G ---0--------------2-------------3--------------5--
C ------------------0----------------------------3--

Вернуться к списку табов

угловые эконом-кухни, фото