Linkin Park - LinPark.ru
Главная       Биография       Фото         Статьи        Табы     Download      Магазин       Ссылки

Табы песни In The End


Tuning: C, G, C, F, A, D
* = Harmonics

D ------------------------------------------------------
A ------------------------------------------------------
F ---4-4--------------0---------------------------------
C -------5-4---4-4--4-----------------------------------
G -7----------------------------------------------------
C ------------------------------------------------------
Piano arranged for guitar

D -----------7*---------------12*--
A -----7*--------------7*----------
F -5*---------------5*-------------
C ---------------------------------
G ---------------------------------
C ---------------------------------

D -------------------------------------------------
A -------------------------------------------------
F -------------7-----5------------------7-----5--4-
C -2-----5-----7-----5---0--2-----5-----7-----5--4-
G -2-----5-----5-----3---0--2-----5-----5-----3--2-
C -2-----5-----0---------0--2-----5-----0----------

Chorus/Bridge
D -------0-2-3-2--
A ----------------
F -----4----------
C ---5------------
G -7--------------
C ----------------

Вернуться к списку табов

Понравилась песня Linkin park in the end с сайта http://iplayer.fm.