Linkin Park - LinPark.ru
Главная       Биография       Фото         Статьи        Табы     Download      Магазин       Ссылки

Табы песни One Step Closer


Tuning: C, G, C, F, A, D
* = Harmonic
pm = Palm Mute

Intro
D -----------------------------------------------
A -----------------------------------------------
F -----------------------------------------------
C -----------------------------------------------
G ---------*7------------------------------------
C 0--*5-0-----8-7--0-3---------------------------
pm pm pm

Verse
D -----------------------------------------------
A -----------------------------------------------
F --------9--------5-----------------------------
C 0-0--0--x--8-7---x-----------------------------
G 0-0--0--7--8-7---3-----------------------------
C 0-0--0-----8-7-0-------------------------------

Bridge 1
D -------------------------------------------------------------
A -------------------------------------------------------------
F -------------------------------------------------------------
C 5-5---x-x---x-5-5---x-x---x-5-5--x-x---x---------------------
G 5-5---x-x---x-5-5---x-x---x-5-5--x-x---x---------------------
C 5-5---x-x---x-5-5---x-x---x-5-5--x-x---x---------------------

Bridge 2
D ------------------------------------*5-*5-*5--------
A ---------------------------------*5-----------------
F ----------------------------------------------------
C 5-5---x-x---x-5-5---x-x---x-5-5---------------------
G 5-5---x-x---x-5-5---x-x---x-5-5---------------------
C 5-5---x-x---x-5-5---x-x---x-5-5---------------------

Chorus
D ----------------------------------------------------------
A ----------------------------------------------------------
F ----------------------------------------------------------
C 0--0--12-12--10-10--7---8-8--5-5--7-7--3-3---1-1-1-1-1-1-1
G 0--0--12-12--10-10--7---8-8--5-5--7-7--3-3---1-1-1-1-1-1-1
C 0--0--12-12--10-10--7---8-8--5-5--7-7--3-3---1-1-1-1-1-1-1
(last time only)

Other Part
D -------------------------------------------
A -------------------------------------------
F -------------------------------------------
C 1-0---0-0---0---1-3-0-0--6\------0-0-0-----
G 1-0---0-0---0---1-3-0-0--6\------0-0-0-----
C 1-0---0-0---0---1-3-0-0--6\------0-0-0-----
pm...... (second time only)

Вернуться к списку табов

бесшовные натяжные потолки цена . свадебные платья а силуэт