Linkin Park - LinPark.ru
Главная       Биография       Фото         Статьи        Табы     Download      Магазин       Ссылки

Табы песни Papercut


Tuning: C, G, C, F, D, A

Intro
D 10--12--13--12--10--12--13--12-----
A --10--10--10--10--10--10--10--10---
F -----------------------------------------
C -----------------------------------------
G -----------------------------------------
C -----------------------------------------

Chorus
D -----------------------------------------
A -----------------------------------------
F --------10--9--5------------------------
C 0-0-0-------------------------------1-3
G 0-0-0---8--7--3--------------------1-3
C 0-0-0-------------------------------1-3
(last time only)

Verse
D -------------------------------------------
A -------------------------------------------
F -------------------------------------------
C 0-0-0----8-8-8-8-7-7---------------1-3
G 0-0-0----8-8-8-8-7-7---------------1-3
C 0-0-0----8-8-8-8-7-7----------------1-3
[palm mute all] [Every Other Time]

Ending
D --------------------------------------------------------------
A --------------------------------------------------------------
F --------------------------------------------------------------
C 8-8-8---8---8-8-10-10-10---5-5-5---5--5-5-5-5---5-5-5
G 8-8-8---8---8-8-10-10-10---5-5-5---5--5-5-5-5---5-5-5
C 8-8-8---8---8-8-10-10-10---5-5-5---5--5-5-5-5---5-5-5

Вернуться к списку табов

Оборудование для порошковой покраски вакансия маляр порошковой покраски.