Linkin Park - LinPark.ru
Главная       Биография       Фото         Статьи        Табы     Download      Магазин       Ссылки

Табы песни Runaway


Tuning: C, G, C, F, A, D
* = Harmonic

Intro
D -------------------------------------------------------
A -------------------------------------------------------
F 7---7-7-10---10-10--10---10-10-3---3-3-5---5-5--5---5-5
C 7---7-7-10---10-10--10---10-10-3---3-3-5---5-5--5---5-5
G 5---5-5--8----8--8---8----8--8-1---1-1-3---3-3--3---3-3
C -------------------------------------------------------

Chorus
D ---------------------------------------------------------------
A ---------------------------------------------------------------
F ----------10---10-10--10---10-10-------------------------------
C 0---0-0---10---10-10--10---10-10-8---8-8-10---10-10--10---10-10
G 0---0-0---8----8---8---8----8--8-8---8-8-10---10-10--10---10-10
C 0---0-0--------------------------8---8-8-10---10-10--10---10-10

Verse (clean)
D -----------------------------------------------------------
A -----------------------------------------------------------
F -----------------------------------------------------------
C *12-*12-*12-*12-*12-*12-*12-*12-*12-*12-*12-*12-10-10-10-10
G -----------------------------------------------------------
C -----------------------------------------------------------
pm.........................................................

Middle Part
D -----------------------------------
A -----------------------------------
F -----------------------------------
C 0---0-0-1-0-0-0---0-0-0-1----------
G 0---0-0-1-0-0-0---0-0-0-1----------
C 0---0-0-1-0-0-0---0-0-0-1----------

Вернуться к списку табов

ели опт интернет магазин