Linkin Park - LinPark.ru
Главная       Биография       Фото         Статьи        Табы     Download      Магазин       Ссылки

Табы песни A Place For My Head


Tuning: C, G, C, F, A, D

Verse 1 and Verse 2 Part 1
D ---------------------------------------------------------------
A ---------------------------------------------------------------
F -------6-6-6-7-6-4---------------------------------------------
C 4---4-----------------7-7--5-5-5-5-5-7-------------------------
G ---------------------------------------------------------------
C ---------------------------------------------------------------

Verse 2 Part 2
D ----------------------------------------------------------------
A ----------------------------------------------------------------
F 6-------2-------6-------2---------------------------------------
C 4-------0-------4-------0---------------------------------------
G 4-------0-------4-------0---------------------------------------
C 4-------0-------4-------0---------------------------------------

Chorus
D ----------------------------------------------------------------
A ----------------------------------------------------------------
F -----------6-7-6-4-2--2--2-2------------------------------------
C 4--4--4-4--6-7-6-4-2--2--2-2-5-5-5-7----------------------------
G 4--4--4-4--4-5-4-2-0--0--0-0-5-5-5-7----------------------------
C 4--4--4-4--------------------5-5-5-7----------------------------

Ending
D -----------------------------------------------------------------
A -----------------------------------------------------------------
F -----------------------------------------------------------------
C 4-4---4-4-4-4---4-4-4---4-4-4-5-7--------------------------------
G 4-4---4-4-4-4---4-4-4---4-4-4-5-7--------------------------------
C 4-4---4-4-4-4---4-4-4---4-4-4-5-7--------------------------------

Вернуться к списку табов

http://torgsnab-nn.ru/katalog/tehnologicheskoe-oborudovanie/parokonvektomaty/abat.html